YO
DOTAI ACADEMY! an original yaoi/bl roleplay
Open
Threads
AD
PROMO
WELCOME
WELCOME TO DOTAI ACADEMY an original yaoi/BL roleplay that has been up and running since August 2012.

We are a no word-count site and allow you to use playbys from any source so long as the image you are using is animanga in style so take a seat, look around and enjoy your stay here at Dotai! We're happy to have you~ ♥


UPDATES
01.29.17
Good News, Everyone! An Activity Check! We've had some different activity going around and we'd like to clean this place up a bit (as part of the revamps that are going on behind the sceenes). This is going to be a very short check. By the time you blink, it'll be over, so please participate. Everything is getting deleted if you don't post in the check. This goes for new people as well because a proper list will be made, so don't skip ou ton it, ok?

In other news, allt he apps that have been waiting since the dawn of time have finally been looked over and approved/pended. Please check that out, and we're really sorry to keep you guys waiting. Play on! Please keep an eye out for updates and feel free to contact staff with questions or concerns. :)



 
Add Reply
New Topic
New Poll

 ★ JOB CLAIMS
Admin Ceras
 Posted: Sep 15 2013, 04:38 PM
Quote






















1630POSTS
4380DOLLARS


Cerasri
is Offline
















Job Claim!
★ Please post in and out of code
★ If you wish to add a job or a shop, simply reply to this thread with the new item.
★ Reservations last for two weeks
★ Many of the jobs have limits on them, this is to keep a balance on things. These numbers may be changed as the rp grows.
★ Jiyu students can only have claims in Unmei City.
★ For clubs click here. For gangs, go here and post in the correct Dossier.

RESERVED

Psychology Teacher && French Language Teacher
dragon -- date of exp (06/12)



THE ACADEMY
ADMINISTRATION
-------HEADMASTER (30+)
------------NPC
-------ASSISTANT HEADMASTERS (30+)
------------(1/2)
----------- Veena Maji

CLINIC
-------DOCTORS (26+)
------------(0/2)
-------NURSES (22+)
------------(1/4)
------------ Victor Humphery
-------STUDENT VOLUNTEERS (16+)
------------(0/5)
-------STUDENT INTERNS (18+)
------------(0/5)

LANGUAGE DEPARTMENT: LANGUAGE ARTS
-------DEPARTMENT HEAD
------------(0/1)
-------ENGLISH LITERATURE
------------(0/1)
-------CREATIVE WRITING
------------(0/1)

LANGUAGE ARTS DEPARTMENT: FOREIGN LANGUAGES
-------DEPARTMENT HEAD
------------(0/1)
-------GERMAN
------------(0/1)
-------ENGLISH
------------(0/1)
-------FRENCH
------------(0/1)

MATH DEPARTMENT
-------DEPARTMENT HEAD
------------(0/1)
-------BASIC MATH
------------(0/1)
-------CALCULUS
------------Hiro Fedele

HISTORY DEPARTMENT
-------DEPARTMENT HEAD
------------(0/1)
-------BASIC WORLD HISTORY
------------(0/1)
-------ANCIENT EGYPTIAN HISTORY
------------(0/1)
--------ART HISTORY
------------- Isaac Tierney

SCIENCE DEPARTMENT : PHYSICAL SCIENCES
-------DEPARTMENT HEAD
------------(0/1)
-------CHEMISTRY
------------ Nico Embers
-------ADVANCED CHEMISTRY
------------ Nico Embers

SCIENCE DEPARTMENT : LIFE SCIENCES
-------DEPARTMENT HEAD
------------ Malachi Sinclair
-------ENVIRONMENTAL SCIENCE
------------(0/1)
-------BOTANY
------------(0/1)
-------GENETICS
------------ Malachi Sinclair

HEALTH DEPARTMENT : HEALTH & EXERCISE SCIENCES
-------DEPARTMENT HEAD
------------(0/1)
-------ANATOMY
------------ Charon Rallis

-------HEALTH EDUCATION
------------ Taiga Sinchino
-------SEXUAL EDUCATION
------------(0/1)
-------PHYSICAL EDUCATION
------------(0/2)

SOCIAL SCIENCES DEPARTMENT
-------DEPARTMENT HEAD
------------(0/1)
-------PSYCHOLOGY
------------(0/1)
-------RADICAL CIVICS
------------(0/1)
-------RELIGIOUS STUDIES
------------ Alexander Tierney

HOME ECONOMICS DEPARTMENT
-------DEPARTMENT HEAD
------------(0/1)
-------BAKING
------------ Yusuke Keichiro

ART DEPARTMENT
-------DEPARTMENT HEAD
------------(0/1)
-------BASIC ART
------------(0/1)
-------CONCEPTUAL ARTS
------------(0/1)
-------PAINTING
------------ Axel Rose
-------COMICS
------------(0/1)
MUSIC DEPARTMENT
-------DEPARTMENT HEAD
------------(0/1)
-------BASIC MUSIC
------------(0/2)
-------ORCHESTRA
------------(0/1)
-------CHOIR
------------(0/1)

DANCE & THEATER DEPARTMENT
-------DEPARTMENT HEAD
------------(0/1)
-------SOLO DANCE
------------(1/3)
------------ Theodore Castor
-------PAIR DANCE (taught in pairs)
------------(1/4)
------------ Theodore Castor
-------GROUP DANCE (taught in pairs)
------------(0/4)
-------DRAMA
------------Uilliam Ó Braonáin

OTHER STAFF
-------LIBRARIANS
------------(1/2)
------------ Seunghui In
-------CUSTODIANS
------------(0/4)
-------JANITORS
------------(0/4)
-------CAMPUS SECURITY
------------(0/4)
-------CHEFS
------------(0/2)
-------COUNSELORS
------------(0/2)
-------FREE LANCE INSTRUCTORS
------------(0/5)
UNMEI CITY
CLUB AQUA
-------OWNER
------------ Tiberius Walker
-------BARTENDERS (21+)
------------(0/2)
-------WAITERS/WAITRESSES (17+)
------------(1/4)
------------ Theodore Castor
-------DJ'S (18+)
------------(0/2)
-------BOUNCERS (20+)
------------(0/2)

SEVEN SINS
-------OWNER(26+)
------------(0/1)
-------BARTENDERS (21+)
------------(0/2)
-------DANCERS (EXOTIC, 18+)
------------(2/4)
------------ Waru Conquest
------------Minori Yuichii
-------WAITERS/WAITRESSES (18+)
------------(0/4)
-------DJ'S (18+)
------------(0/2)
-------BOUNCERS (20+)
------------(0/2)

THE ORCHID LOUNGE
-------OWNERS
------------Saburo Akiyama
------------Hanako Akiyama
-------BARTENDERS (21+)
------------(0/2)
-------PIANIST (21+)
------------(0/1)
-------LOUNGE SINGER (21+)
------------Anoleis Golstagg
-------HOSTS/HOSTESSES (21+)
------------(0/4)
-------BOUNCERS (20+)
------------(0/2)

WILD DUCK BURGER
-------OWNER
------------(0/1)
-------MANAGERS
------------(0/2)
-------FRY COOKS
------------(0/4)
-------CASHIERS
------------(0/4)

UNMEI RAMEN SHOP
-------OWNER
------------(0/1)
-------MANAGERS
------------(0/2)
-------COOKS
------------(0/2)
-------SERVERS
------------(1/4)
------------Jason Chance

LA CAMPAGNA
-------OWNER
------------(0/1)
-------MANAGERS
------------(0/2)
-------HEAD CHEF
------------(0/1)
-------SOUX CHEFS
------------(1/2)
------------Xyler Matsuoka
-------WAITERS
------------(2/4)
------------ Kaito Renkoutsu
------------Jason Chance

UNMEI SHRINE
-------CARETAKER
------------(2/2)
------------ Hanabira Akaze
------------ Fang Tentekom

SHUKUMEI THEATER
-------OWNER
------------Uilliam Ó Braonáin
-------MANAGER
------------(0/1)
-------WORKERS
------------(0/5)

MALL : FOOD COURT
-------OWNER
------------(0/1)
-------MANAGER
------------(0/1)
-------WORKERS
------------(0/5)

MALL : FOOD COURT : AT YOUR SERVICE CAFE
-------OWNER (22+)
------------(0/1)
-------MANAGER(20+)
------------(0/2)
-------WAITERS (16+)
------------(1/5)
------------ Ryouta Makoto
-------CHEFS(21+)
------------(0/2)

MALL : SHOPS : BOOKSTORE
-------OWNER
------------(0/1)
-------MANAGERS (18+)
------------(0/2)
-------WORKERS (17+)
------------(1/5)
------------ Haru Matthews
------------ Valentin Dampierre

MALL : SHOPS : CASCADE CLOTHING
-------OWNER
------------(0/1)
-------MANAGERS (18+)
------------(0/2)
-------WORKERS (16+)
------------(0/5)

MALL : SHOPS : FLOWER SHOP
-------OWNER
------------ Aymery Golstagg
-------WORKERS (16+)
------------(1/5)
------------ Amai Wolfwood

MALL : SHOPS : TATTOO SHOP
-------OWNER
------------ Christopher Brennan
-------WORKERS (18+)
------------(3/5)
------------Oliver Williams
------------ Darren Tendou
------------Yuu Sakama

HOSPITAL
-------DOCTORS (26+)
------------(0/2)
-------NURSES (21+)
------------(0/4)
-------INTERNS (18+)
------------(2/4)
------------ Yasuo Usagi
------------Yuu Sakama
-------VOLUNTEERS (16+)
------------(1/4)
------------Jason Chance
-------OTHER EMPLOYEES
------------(0/5)

UNMEI RADIO STATION
-------OWNER
------------ Lieko Vonvertex
-------SHOW HOSTS (18+)
------------(0/4)
-------SHOW HOSTS (18+)
------------(0/5)
-------SHOW HOSTS (17+)
------------(0/5)

LAW ENFORCEMENT
-------CHIEF OF POLICE (30+)
------------(0/1)
-------POLICE OFFICERS (22+)
------------(1/4)
------------ Ryker Reese
-------POLICE ANALYSTS(22+)
------------(0/4)
-------PRIVATE INVESTIGATORS (21+)
------------(0/3)
-------INTERNS (18+)
------------(0/3)

FIRE STATION
-------FIRE CHIEF (30+)
------------(0/1)
-------FIREFIGHTERS (18+)
------------(0/5)
-------FIREFIGHTER TRAINEES (15+)
------------(0/4)

OTHER
-------ACTOR
------------ Shiranui Califano
-------MODEL
------------ Adrian Frost
------------ Shiranui Califano
-------POP-STAR
------------ Shiranui Califano
-------PIZZA DELIVERY BOY
------------ Brian Doe


CODE !
1. Section
2. Job

followed by:
MALES
CODE
<b>♂</b> First Last <br>

FEMALES
CODE
<b>♀</b> First Last <br>

RESERVED
CODE
ooc name -- date of exp (MM/DD)

template © cerasri


PMEmail
^
berrysoul
 Posted: Jan 31 2017, 07:42 PM
Quote






















362POSTS
680DOLLARS


Berry
is Offline














berrysoul
Roleplayer



Shop in the mall owned by Natsume Mutou called Fashion Always.

--------------------
And..... Surprise!!
user posted image
PMWebsite
^
Akira Serizawa
 Posted: Mar 25 2017, 01:44 PM
Quote






















12POSTS
125DOLLARS


Aleph
is Offline














Akira Serizawa
Third Year



1. Unmei Radio Station
2. Show Host

CODE
<b>♂</b> Akira Serizawa <br>
PM
^
TEOP
 Posted: Jul 6 2017, 01:16 PM
Quote






















17POSTS
205DOLLARS


TEOP
is Offline














TEOP
Roleplayer



QUOTE (TEOP @ Mar 8 2017, 03:54 AM)
<b>♂</b> Calumn Caiside <br>
1. Worker
2. Mall : Shops : Flowershop


Dragon    ,      Admin Ceras


Re-applying.

This post has been edited by TEOP: Jul 6 2017, 01:16 PM

--------------------
user posted image "I challenge you to write."
PM
^
1 User(s) are reading this topic (1 Guests and 0 Anonymous Users)
0 Members:

Topic Options
Add Reply
New Topic
New Poll


 


 


14 FIRST YEARS 15 SECOND YEARS 21 THIRD YEARS 22 FOURTH YEARS 11 EXCHANGE STUDENTS 13 TEACHERS & FACULTY 19 CITIZENS
33 UKE 51 SEKE 31 SEME
MEMBER OTM Lottery
CHARACTER OTM Finnigan McWeathers
PAIRING OTM Yuuko Amano x Naomi Akiyama
THREAD OTM Won't you marry me?
The Chatbox
BOX RULES
★ Keep it PG-13
★ No advertising in the cbox
★ The ICC functions an online chatroom for characters.
★ Only accepted students & faculty in the icc.
★ Listen to staff. What we say goes, capiche?